Bopology 101:
Riff 9

  _    _ _ _   __3__  __3__   _3_   __3__  __3__  __3__
 |    | | | |  | | |  | | |   |||   | | |  | | |  | | |
---|--------7--8------------|---------------------------|
---|------8-----10----------|---7--10-9-8--7------------|
---|----9---------11--8-----|--7------------10-9--8-7---|
-7-|-10----------------10-7-|-9-----------------------9-|
---|------------------------|---------------------------|
---|------------------------|---------------------------|
 P  S         S                                       M S

  ___3___   ___3___   ___3___   ___3___
  |  |  |   |  |  |   |  |  |   |  |  |   |
|--------------------------12--14-16-17-|-15------------|
|----------------11--13-15--------------|---------------|
|-------9--11-13------------------------|---------------|
|-10-12---------------------------------|---------------|
|---------------------------------------|---------------|
|---------------------------------------|---------------|
(S)

Symbols used in this Tablature

Symbols used ABOVE the grid:
r    = rest __3__
| | |
= triplet
 _
| |
    = 2 eighth notes
r
|
   = quarter rest
|     = quarter note  _ _
| | |
  = 3 eighth notes
r_
|
   = eighth rest
 _
|
    = eighth note
 _ _ _
| | | |
= 4 eighth notes

Symbols used BELOW the grid:
S = slide /  = gliss up into \ = gliss down out of
H = hammer on PO = pull off I = index finger
M = middle finger R  = ring finger P = pinky finger

 


Jeff-Brent.com
copyright 2003 Jeff Brent

If you've found your way to this page from a Search Engine link,
please click here to enter Jeff Brent's Web Site.
(This link will take you to the entire web site.)