Bopology 101:
Riff 3

  _   _ __ _  _3_  _     _       _  _3_  _3_
 |   | |  | | ||| | |   |  |    |   |||  |||
---|------------------|----10---9---87-------|
---|--------8-787-6---|---------------10-987-|
---|------9---------8-|-7--7-----------------|
-6-|-7-10-------------|----------------------|
---|------------------|----------------------|
---|------------------|----------------------|
   S             S  M                        S

   _ __ _   ___3__  _3_
  | |  | |  |  | |  |||   |
|-----------------------|------------------|
|-8-------------------7-|-8----------------|
|---9---------------89--|------------------|
|-----10-7--8-10-11-----|------------------|
|-----------------------|------------------|
|-----------------------|------------------|
(S)        S               \

Symbols used in this Tablature

Symbols used ABOVE the grid:
r    = rest __3__
| | |
= triplet
 _
| |
    = 2 eighth notes
r
|
   = quarter rest
|     = quarter note  _ _
| | |
  = 3 eighth notes
r_
|
   = eighth rest
 _
|
    = eighth note
 _ _ _
| | | |
= 4 eighth notes

Symbols used BELOW the grid:
S = slide /  = gliss up into \ = gliss down out of
H = hammer on PO = pull off I = index finger
M = middle finger R  = ring finger P = pinky finger

 


Jeff-Brent.com
copyright 2003 Jeff Brent

If you've found your way to this page from a Search Engine link,
please click here to enter Jeff Brent's Web Site.
(This link will take you to the entire web site.)